Tum Hi Ho (The Love Theme) - Aashiqui 2 Guitar Tabs ~ Ultimate Chords

(Repeat Intro Twice)
e--1--3--4--1--3--4---------------------|
B----------------------1--2----2--1--2--|
G-----------------------------------------|
D-----------------------------------------|
A-----------------------------------------|
E-----------------------------------------|

e------1--3-----1--3--------------------------|
B--4---------4---------2--2--1--1------1----|
G-------------------------------------3--------|
D-----------------------------------------------|
A-----------------------------------------------|
E-----------------------------------------------|

e----------1---------1--8--8--6--6--4--6-----|
B--2--4------2--4------------------------------|
G------------------------------------------------|
D------------------------------------------------|
A------------------------------------------------|
E------------------------------------------------|

e-----------------8--8--9--8-----8------------|
B--8--8--5--5----------------8----------------|
G-----------------------------------------------|
D-----------------------------------------------|
A-----------------------------------------------|
E-----------------------------------------------|

----------------------------------------------------

Tere Liye Hi Jiya Main

e--1--1------1----1--1--3--------------|
B---------4-------------------4--2--1---|
G-----------------------------------------|
D-----------------------------------------|
A-----------------------------------------|
E-----------------------------------------|

Khud Ko Jo Yun De Diya Hai

e-------------1----1--1--3------------------|
B--1--1--2------------------4--2--1--------|
G---------------------------------------------|
D---------------------------------------------|
A---------------------------------------------|
E---------------------------------------------|

Teri Wafa Ne Mujhko Sambhala

e----------------------------------------------|
B--2--2--1--2--1--2--------------2--1-----|
G-----------------------3--1--1--------------|
D----------------------------------------------|
A----------------------------------------------|
E----------------------------------------------|

Saare Gamo Ko Dil Se Nikala

e---------------------------------------------------|
B--2--2--1--2--2s4s2--1------------2--1-----|
G------------------------------3--3--3------------|
D---------------------------------------------------|
A---------------------------------------------------|
E---------------------------------------------------|

Tere Sath Mera Hai Naseeb Juda

e--------------------------------------------------------|
B----------------------------------2--2--1--1------1--|
G-------------0--0------0----0-----------------3------|
D--1--3--3----------3---------------------------------|
A-------------------------------------------------------|
E-------------------------------------------------------|

Tujhe Pake Adhura Na Raha

e------0--0--1--1-------------------------------------|
B--1----------------1--1------------------------------|
G--------------------------3--3--1--3--1----1--0---|
D-------------------------------------------------------|
A-------------------------------------------------------|
E-------------------------------------------------------|

Kyuki Tum Hi Ho Ab Tum Hi Ho

e---------------------------------------------------|
B----------1------------------1--2p1-------------|
G--1--3------1--3----1--3------------1--3------|
D---------------------------------------------------|
A---------------------------------------------------|
E---------------------------------------------------|

Zindagi Ab Tum Hi Ho

e-------------------------------------------------|
B------------------------------------------------|
G--0--3--1--0------0----------0--1--3-------|
D-----------------3------1--3------------------|
A------------------------------------------------|
E------------------------------------------------|

Chain Bhi Mera Dard Bhi

e------------------------------------------------|
B--1----------------------1--4--2-------------|
G-----1--3--------1--3-------------3---------|
D-----------------------------------------------|
A-----------------------------------------------|
E-----------------------------------------------|

Meri Aashiqui Ab Tum Hi Ho

e-----------------------------------------------|
B-----------------------------------------------|
G--0--0--3--1----0-----0--------------------|
D----------------------3-----1--3-------------|
A-----------------------------------------------|
E-----------------------------------------------|

These Chords Are Submitted By Krishna Kumar Gupta. You Can Find Him On Facebook. If You Wish To Submit Your Guitar Chords Check Here.

Tum Hi Ho (The Love Theme) - Aashiqui 2 Guitar Tabs

Description: Tum Hi Ho (The Love Theme) - Aashiqui 2 Guitar Tabs Full Leading With Intro Part Guitar Tabs
  • Views:
  • Share
     
    Ultimate Chords
    Blogger Templates Wallpapers Hack Wfi